  0
SECTION
  2
HEADER
  9
$ACADVER
  1
AC1004
  9
$INSBASE
 10
0.0
 20
0.0
  9
$EXTMIN
 10
-33.086667
 20
-34.475
  9
$EXTMAX
 10
1016.913333
 20
1450.525
  9
$LIMMIN
 10
-33.086667
 20
-34.475
  9
$LIMMAX
 10
1016.913333
 20
1450.525
  9
$VIEWCTR
 10
6.0
 20
4.5
  9
$VIEWSIZE
 40
9.0
  9
$SNAPMODE
 70
     0
  9
$SNAPUNIT
 10
12.5
 20
12.5
  9
$SNAPBASE
 10
0.0
 20
0.0
  9
$SNAPANG
 50
0.0
  9
$SNAPSTYLE
 70
     0
  9
$SNAPISOPAIR
 70
     0
  9
$GRIDMODE
 70
     1
  9
$GRIDUNIT
 10
50.0
 20
50.0
  9
$ORTHOMODE
 70
     0
  9
$REGENMODE
 70
     1
  9
$FILLMODE
 70
     1
  9
$QTEXTMODE
 70
     0
  9
$DRAGMODE
 70
     2
  9
$LTSCALE
 40
1.0
  9
$OSMODE
 70
     1
  9
$ATTMODE
 70
     1
  9
$TEXTSIZE
 40
0.2
  9
$TRACEWID
 40
0.05
  9
$TEXTSTYLE
  7
STANDARD
  9
$CLAYER
  8
DATA
  9
$CELTYPE
  6
CONTINUOUS
  9
$CECOLOR
 62
     7
  9
$DIMSCALE
 40
1.0
  9
$DIMASZ
 40
0.18
  9
$DIMEXO
 40
0.0625
  9
$DIMDLI
 40
0.38
  9
$DIMRND
 40
0.0
  9
$DIMDLE
 40
0.0
  9
$DIMEXE
 40
0.18
  9
$DIMTP
 40
0.0
  9
$DIMTM
 40
0.0
  9
$DIMTXT
 40
0.18
  9
$DIMCEN
 40
0.09
  9
$DIMTSZ
 40
0.0
  9
$DIMTOL
 70
     0
  9
$DIMLIM
 70
     0
  9
$DIMTIH
 70
     1
  9
$DIMTOH
 70
     1
  9
$DIMSE1
 70
     0
  9
$DIMSE2
 70
     0
  9
$DIMTAD
 70
     0
  9
$DIMZIN
 70
     0
  9
$DIMBLK
  1

  9
$DIMASO
 70
     1
  9
$DIMSHO
 70
     1
  9
$DIMPOST
  1

  9
$DIMAPOST
  1

  9
$DIMALT
 70
     0
  9
$DIMALTD
 70
     2
  9
$DIMALTF
 40
25.4
  9
$DIMLFAC
 40
1.0
  9
$LUNITS
 70
     2
  9
$LUPREC
 70
     4
  9
$AXISMODE
 70
     0
  9
$AXISUNIT
 10
0.0
 20
0.0
  9
$SKETCHINC
 40
0.1
  9
$FILLETRAD
 40
3.9
  9
$AUNITS
 70
     0
  9
$AUPREC
 70
     0
  9
$MENU
  1
acad
  9
$ELEVATION
 40
0.0
  9
$THICKNESS
 40
0.0
  9
$VIEWDIR
 10
0.0
 20
0.0
 30
1.0
  9
$LIMCHECK
 70
     0
  9
$BLIPMODE
 70
     1
  9
$CHAMFERA
 40
0.0
  9
$CHAMFERB
 40
0.0
  9
$FASTZOOM
 70
     1
  9
$SKPOLY
 70
     0
  9
$TDCREATE
 40
0.0
  9
$TDUPDATE
 40
0.0
  9
$TDINDWG
 40
0.0
  9
$TDUSRTIMER
 40
0.0
  9
$USRTIMER
 70
     1
  9
$ANGBASE
 50
0.0
  9
$ANGDIR
 70
     0
  9
$PDMODE
 70
     0
  9
$PDSIZE
 40
0.0
  9
$PLINEWID
 40
0.0
  9
$COORDS
 70
     1
  9
$SPLFRAME
 70
     0
  9
$SPLINESEGS
 70
    10
  9
$ATTDIA
 70
     0
  9
$ATTREQ
 70
     1
  9
$USERI1
 70
     0
  9
$USERI2
 70
     0
  9
$USERI3
 70
     0
  9
$USERI4
 70
     0
  9
$USERI5
 70
     0
  9
$USERR1
 40
0.0
  9
$USERR2
 40
0.0
  9
$USERR3
 40
0.0
  9
$USERR4
 40
0.0
  9
$USERR5
 40
0.0
  0
ENDSEC
  0
SECTION
  2
TABLES
  0
TABLE
  2
LTYPE
 70
    11
  0
LTYPE
  2
CONTINUOUS
 70
     0
  3
Solid line
 72
    65
 73
     0
 40
0.0
  0
LTYPE
  2
DASHED
 70
     0
  3
__ __ __ __ __ __ __ __ __ __ __ __ __ __ __
 72
    65
 73
     2
 40
0.75
 49
0.5
 49
-0.25
  0
LTYPE
  2
HIDDEN
 70
     0
  3
_ _ _ _ _ _ _ _ _ _ _ _ _ _ _ _ _ _ _ _ _ _ 
 72
    65
 73
     2
 40
0.25
 49
0.125
 49
-0.125
  0
LTYPE
  2
CENTER
 70
     0
  3
____ _ ____ _ ____ _ ____ _ ____ _ ____ _ __
 72
    65
 73
     4
 40
2.0
 49
1.25
 49
-0.25
 49
0.25
 49
-0.25
  0
LTYPE
  2
PHANTOM
 70
     0
  3
_____ _ _ _____ _ _ _____ _ _ _____ _ _ ____
 72
    65
 73
     6
 40
2.5
 49
1.25
 49
-0.25
 49
0.25
 49
-0.25
 49
0.25
 49
-0.25
  0
LTYPE
  2
DOT
 70
     0
  3
............................................
 72
    65
 73
     2
 40
0.25
 49
0.0
 49
-0.25
  0
LTYPE
  2
DASHDOT
 70
     0
  3
__ . __ . __ . __ . __ . __ . __ . __ . __ .
 72
    65
 73
     4
 40
1.0
 49
0.5
 49
-0.25
 49
0.0
 49
-0.25
  0
LTYPE
  2
BORDER
 70
     0
  3
__ __ . __ __ . __ __ . __ __ . __ __ . __ _
 72
    65
 73
     6
 40
1.75
 49
0.5
 49
-0.25
 49
0.5
 49
-0.25
 49
0.0
 49
-0.25
  0
LTYPE
  2
DIVIDE
 70
     0
  3
__ . . __ . . __ . . __ . . __ . . __ . . __
 72
    65
 73
     6
 40
1.25
 49
0.5
 49
-0.25
 49
0.0
 49
-0.25
 49
0.0
 49
-0.25
  0
LTYPE
  2
DOTS
 70
     0
  3
close                                       
 72
    65
 73
     2
 40
0.1
 49
0.05
 49
-0.05
  0
LTYPE
  2
CLOSE
 70
     0
  3
                                            
 72
    65
 73
     0
 40
0.0
  0
ENDTAB
  0
TABLE
  2
LAYER
 70
     5
  0
LAYER
  2
0
 70
     0
 62
     7
  6
CONTINUOUS
  0
LAYER
  2
LAYER01
 70
     0
 62
     7
  6
CONTINUOUS
  0
LAYER
  2
DATA
 70
     0
 62
     7
  6
CONTINUOUS
  0
LAYER
  2
DIMENSIONS
 70
     0
 62
     7
  6
CONTINUOUS
  0
LAYER
  2
HIBINO-BASE
 70
     0
 62
     7
  6
CONTINUOUS
  0
ENDTAB
  0
TABLE
  2
STYLE
 70
     2
  0
STYLE
  2
STANDARD
 70
     0
 40
0.0
 41
1.0
 50
0.0
 71
     0
 42
0.2
  3
txt
  4

  0
STYLE
  2
TTF_DEFAULT
 70
     0
 40
0.0
 41
1.0
 50
0.0
 71
     0
 42
0.0
  3
txt
  4
BIGFONT
  0
ENDTAB
  0
TABLE
  2
VIEW
 70
     0
  0
ENDTAB
  0
ENDSEC
  0
SECTION
  2
BLOCKS
  0
ENDSEC
  0
SECTION
  2
ENTITIES
  0
POLYLINE
  8
HIBINO-BASE
  6
CONTINUOUS
 62
     7
 66
     1
 70
     1
 40
2.0
 41
2.0
  0
VERTEX
  8
HIBINO-BASE
 10
50.0
 20
75.0
  0
VERTEX
  8
HIBINO-BASE
 10
50.0
 20
1375.0
  0
VERTEX
  8
HIBINO-BASE
 10
950.0
 20
1375.0
  0
VERTEX
  8
HIBINO-BASE
 10
950.0
 20
75.0
  0
SEQEND
  8
HIBINO-BASE
  0
LINE
  8
DATA
  6
CONTINUOUS
 62
     7
 10
262.5
 20
450.0
 11
527.5
 21
450.0
  0
LINE
  8
DATA
  6
CONTINUOUS
 62
     7
 10
527.5
 20
672.0
 11
486.9
 21
672.0
  0
ARC
  8
DATA
  6
CONTINUOUS
 62
     7
 10
494.4
 20
967.5
 40
7.5
 50
90.0
 51
180.0
  0
LINE
  8
DIMENSIONS
  6
CONTINUOUS
 62
     7
 10
489.0
 20
937.0
 11
607.5
 21
937.0
  0
LINE
  8
DIMENSIONS
  6
CONTINUOUS
 62
     7
 10
486.9
 20
1000.0
 11
540.0
 21
1000.0
  0
LINE
  8
DIMENSIONS
  6
CONTINUOUS
 62
     7
 10
498.9
 20
998.00008
 11
486.9
 21
1000.0
  0
LINE
  8
DIMENSIONS
  6
CONTINUOUS
 62
     7
 10
498.9
 20
1001.99992
 11
486.9
 21
1000.0
  0
LINE
  8
DIMENSIONS
  6
CONTINUOUS
 62
     7
 10
451.0
 20
843.0
 11
657.5
 21
843.0
  0
LINE
  8
DIMENSIONS
  6
CONTINUOUS
 62
     7
 10
265.0
 20
375.0
 11
525.0
 21
375.0
  0
LINE
  8
DIMENSIONS
  6
CONTINUOUS
 62
     7
 10
250.0
 20
350.0
 11
540.0
 21
350.0
  0
ARC
  8
DATA
  6
CONTINUOUS
 62
     7
 10
494.4
 20
967.5
 40
3.9
 50
90.0
 51
180.0
  0
LINE
  8
DATA
  6
CONTINUOUS
 62
     7
 10
325.0
 20
648.5
 11
325.0
 21
756.545584
  0
LINE
  8
DATA
  6
CONTINUOUS
 62
     7
 10
465.0
 20
648.5
 11
465.0
 21
756.545584
  0
TEXT
  8
DIMENSIONS
  6
CONTINUOUS
 62
     7
 10
217.5
 20
703.5
 40
15.0
  1
12
 50
90.0
  7
TTF_DEFAULT
  0
TEXT
  8
DIMENSIONS
  6
CONTINUOUS
 62
     7
 10
192.5
 20
691.5
 40
15.0
  1
25.5
 50
90.0
  7
TTF_DEFAULT
  0
LINE
  8
DIMENSIONS
  6
CONTINUOUS
 62
     7
 10
253.75
 20
564.25
 11
217.5
 21
564.25
  0
LINE
  8
DIMENSIONS
  6
CONTINUOUS
 62
     7
 10
259.0
 20
660.0
 11
192.5
 21
660.0
  0
LINE
  8
DIMENSIONS
  6
CONTINUOUS
 62
     7
 10
259.0
 20
469.0
 11
192.5
 21
469.0
  0
LINE
  8
DIMENSIONS
  6
CONTINUOUS
 62
     7
 10
256.5
 20
672.0
 11
142.5
 21
672.0
  0
LINE
  8
DIMENSIONS
  6
CONTINUOUS
 62
     7
 10
256.5
 20
450.0
 11
142.5
 21
450.0
  0
LINE
  8
DIMENSIONS
  6
CONTINUOUS
 62
     7
 10
249.75
 20
634.5
 11
167.5
 21
634.5
  0
LINE
  8
DIMENSIONS
  6
CONTINUOUS
 62
     7
 10
259.0
 20
609.0
 11
167.5
 21
609.0
  0
LINE
  8
DIMENSIONS
  6
CONTINUOUS
 62
     7
 10
259.0
 20
520.0
 11
167.5
 21
520.0
  0
LINE
  8
DIMENSIONS
  6
CONTINUOUS
 62
     7
 10
249.75
 20
494.5
 11
167.5
 21
494.5
  0
LINE
  8
DIMENSIONS
  6
CONTINUOUS
 62
     7
 10
250.0
 20
375.0
 11
226.0
 21
375.0
  0
TEXT
  8
DIMENSIONS
  6
CONTINUOUS
 62
     7
 10
221.5
 20
382.5
 40
15.0
  1
15
  7
TTF_DEFAULT
  0
TEXT
  8
HIBINO-BASE
  6
CONTINUOUS
 62
     7
 10
85.92
 20
42.9566
 40
20.0
  1
Hibino Corporation
  7
TTF_DEFAULT
  0
LINE
  8
DIMENSIONS
  6
CONTINUOUS
 62
     7
 10
225.0
 20
564.25
 11
225.0
 21
520.0
  0
LINE
  8
DIMENSIONS
  6
CONTINUOUS
 62
     7
 10
223.00008
 20
532.0
 11
225.0
 21
520.0
  0
LINE
  8
DIMENSIONS
  6
CONTINUOUS
 62
     7
 10
226.99992
 20
532.0
 11
225.0
 21
520.0
  0
LINE
  8
DIMENSIONS
  6
CONTINUOUS
 62
     7
 10
150.0
 20
672.0
 11
150.0
 21
450.0
  0
LINE
  8
DIMENSIONS
  6
CONTINUOUS
 62
     7
 10
175.0
 20
520.0
 11
175.0
 21
544.0
  0
LINE
  8
DIMENSIONS
  6
CONTINUOUS
 62
     7
 10
173.00008
 20
532.0
 11
175.0
 21
520.0
  0
LINE
  8
DIMENSIONS
  6
CONTINUOUS
 62
     7
 10
176.99992
 20
532.0
 11
175.0
 21
520.0
  0
LINE
  8
DIMENSIONS
  6
CONTINUOUS
 62
     7
 10
200.0
 20
494.5
 11
200.0
 21
518.5
  0
LINE
  8
DIMENSIONS
  6
CONTINUOUS
 62
     7
 10
200.0
 20
469.0
 11
200.0
 21
445.0
  0
LINE
  8
DIMENSIONS
  6
CONTINUOUS
 62
     7
 10
198.00008
 20
506.5
 11
200.0
 21
494.5
  0
LINE
  8
DIMENSIONS
  6
CONTINUOUS
 62
     7
 10
201.99992
 20
506.5
 11
200.0
 21
494.5
  0
LINE
  8
DIMENSIONS
  6
CONTINUOUS
 62
     7
 10
198.00008
 20
457.0
 11
200.0
 21
469.0
  0
LINE
  8
DIMENSIONS
  6
CONTINUOUS
 62
     7
 10
201.99992
 20
457.0
 11
200.0
 21
469.0
  0
LINE
  8
DIMENSIONS
  6
CONTINUOUS
 62
     7
 10
225.0
 20
469.0
 11
225.0
 21
493.0
  0
LINE
  8
DIMENSIONS
  6
CONTINUOUS
 62
     7
 10
225.0
 20
450.0
 11
225.0
 21
426.0
  0
LINE
  8
DIMENSIONS
  6
CONTINUOUS
 62
     7
 10
223.00008
 20
481.0
 11
225.0
 21
469.0
  0
LINE
  8
DIMENSIONS
  6
CONTINUOUS
 62
     7
 10
226.99992
 20
481.0
 11
225.0
 21
469.0
  0
LINE
  8
DIMENSIONS
  6
CONTINUOUS
 62
     7
 10
223.00008
 20
438.0
 11
225.0
 21
450.0
  0
LINE
  8
DIMENSIONS
  6
CONTINUOUS
 62
     7
 10
226.99992
 20
438.0
 11
225.0
 21
450.0
  0
LINE
  8
DIMENSIONS
  6
CONTINUOUS
 62
     7
 10
148.00008
 20
462.0
 11
150.0
 21
450.0
  0
LINE
  8
DIMENSIONS
  6
CONTINUOUS
 62
     7
 10
151.99992
 20
462.0
 11
150.0
 21
450.0
  0
LINE
  8
DIMENSIONS
  6
CONTINUOUS
 62
     7
 10
175.0
 20
494.5
 11
175.0
 21
470.5
  0
LINE
  8
DIMENSIONS
  6
CONTINUOUS
 62
     7
 10
173.00008
 20
482.5
 11
175.0
 21
494.5
  0
LINE
  8
DIMENSIONS
  6
CONTINUOUS
 62
     7
 10
176.99992
 20
482.5
 11
175.0
 21
494.5
  0
TEXT
  8
DIMENSIONS
  6
CONTINUOUS
 62
     7
 10
167.5
 20
464.0
 40
15.0
  1
25.5
 50
90.0
  7
TTF_DEFAULT
  0
TEXT
  8
DIMENSIONS
  6
CONTINUOUS
 62
     7
 10
192.5
 20
413.5
 40
15.0
  1
25.5
 50
90.0
  7
TTF_DEFAULT
  0
TEXT
  8
DIMENSIONS
  6
CONTINUOUS
 62
     7
 10
217.5
 20
413.0
 40
15.0
  1
19
 50
90.0
  7
TTF_DEFAULT
  0
LINE
  8
DIMENSIONS
  6
CONTINUOUS
 62
     7
 10
223.00008
 20
552.25
 11
225.0
 21
564.25
  0
LINE
  8
DIMENSIONS
  6
CONTINUOUS
 62
     7
 10
226.99992
 20
552.25
 11
225.0
 21
564.25
  0
LINE
  8
DIMENSIONS
  6
CONTINUOUS
 62
     7
 10
225.0
 20
609.0
 11
225.0
 21
564.25
  0
LINE
  8
DIMENSIONS
  6
CONTINUOUS
 62
     7
 10
223.00008
 20
597.0
 11
225.0
 21
609.0
  0
LINE
  8
DIMENSIONS
  6
CONTINUOUS
 62
     7
 10
226.99992
 20
597.0
 11
225.0
 21
609.0
  0
LINE
  8
DIMENSIONS
  6
CONTINUOUS
 62
     7
 10
223.00008
 20
576.25
 11
225.0
 21
564.25
  0
LINE
  8
DIMENSIONS
  6
CONTINUOUS
 62
     7
 10
226.99992
 20
576.25
 11
225.0
 21
564.25
  0
LINE
  8
DIMENSIONS
  6
CONTINUOUS
 62
     7
 10
225.0
 20
672.0
 11
225.0
 21
696.0
  0
LINE
  8
DIMENSIONS
  6
CONTINUOUS
 62
     7
 10
225.0
 20
660.0
 11
225.0
 21
636.0
  0
LINE
  8
DIMENSIONS
  6
CONTINUOUS
 62
     7
 10
223.00008
 20
684.0
 11
225.0
 21
672.0
  0
LINE
  8
DIMENSIONS
  6
CONTINUOUS
 62
     7
 10
226.99992
 20
684.0
 11
225.0
 21
672.0
  0
LINE
  8
DIMENSIONS
  6
CONTINUOUS
 62
     7
 10
223.00008
 20
648.0
 11
225.0
 21
660.0
  0
LINE
  8
DIMENSIONS
  6
CONTINUOUS
 62
     7
 10
226.99992
 20
648.0
 11
225.0
 21
660.0
  0
LINE
  8
DIMENSIONS
  6
CONTINUOUS
 62
     7
 10
200.0
 20
660.0
 11
200.0
 21
684.0
  0
LINE
  8
DIMENSIONS
  6
CONTINUOUS
 62
     7
 10
200.0
 20
634.5
 11
200.0
 21
610.5
  0
LINE
  8
DIMENSIONS
  6
CONTINUOUS
 62
     7
 10
198.00008
 20
672.0
 11
200.0
 21
660.0
  0
LINE
  8
DIMENSIONS
  6
CONTINUOUS
 62
     7
 10
201.99992
 20
672.0
 11
200.0
 21
660.0
  0
LINE
  8
DIMENSIONS
  6
CONTINUOUS
 62
     7
 10
198.00008
 20
622.5
 11
200.0
 21
634.5
  0
LINE
  8
DIMENSIONS
  6
CONTINUOUS
 62
     7
 10
201.99992
 20
622.5
 11
200.0
 21
634.5
  0
LINE
  8
DIMENSIONS
  6
CONTINUOUS
 62
     7
 10
148.00008
 20
660.0
 11
150.0
 21
672.0
  0
LINE
  8
DIMENSIONS
  6
CONTINUOUS
 62
     7
 10
151.99992
 20
660.0
 11
150.0
 21
672.0
  0
LINE
  8
DIMENSIONS
  6
CONTINUOUS
 62
     7
 10
175.0
 20
634.5
 11
175.0
 21
658.5
  0
LINE
  8
DIMENSIONS
  6
CONTINUOUS
 62
     7
 10
175.0
 20
609.0
 11
175.0
 21
585.0
  0
LINE
  8
DIMENSIONS
  6
CONTINUOUS
 62
     7
 10
173.00008
 20
646.5
 11
175.0
 21
634.5
  0
LINE
  8
DIMENSIONS
  6
CONTINUOUS
 62
     7
 10
176.99992
 20
646.5
 11
175.0
 21
634.5
  0
LINE
  8
DIMENSIONS
  6
CONTINUOUS
 62
     7
 10
173.00008
 20
597.0
 11
175.0
 21
609.0
  0
LINE
  8
DIMENSIONS
  6
CONTINUOUS
 62
     7
 10
176.99992
 20
597.0
 11
175.0
 21
609.0
  0
TEXT
  8
DIMENSIONS
  6
CONTINUOUS
 62
     7
 10
167.5
 20
641.0
 40
15.0
  1
25.5
 50
90.0
  7
TTF_DEFAULT
  0
TEXT
  8
DIMENSIONS
  6
CONTINUOUS
 62
     7
 10
142.5
 20
548.867395
 40
15.0
  1
222
 50
90.0
  7
TTF_DEFAULT
  0
TEXT
  8
DIMENSIONS
  6
CONTINUOUS
 62
     7
 10
217.5
 20
569.476905
 40
15.0
  1
44.75
 50
90.0
  7
TTF_DEFAULT
  0
TEXT
  8
DIMENSIONS
  6
CONTINUOUS
 62
     7
 10
217.5
 20
524.976905
 40
15.0
  1
44.25
 50
90.0
  7
TTF_DEFAULT
  0
LINE
  8
DATA
  6
CONTINUOUS
 62
     7
 10
465.0
 20
679.99999
 11
325.0
 21
679.99999
  0
LINE
  8
DATA
  6
CONTINUOUS
 62
     7
 10
250.0
 20
462.5
 11
250.0
 21
659.5
  0
LINE
  8
DATA
  6
CONTINUOUS
 62
     7
 10
299.5
 20
450.0
 11
299.5
 21
672.0
  0
ARC
  8
DATA
  6
CONTINUOUS
 62
     7
 10
262.5
 20
462.5
 40
12.5
 50
180.0
 51
270.0
  0
LINE
  8
DATA
  6
CONTINUOUS
 62
     7
 10
259.75
 20
502.11577
 11
259.75
 21
514.75
  0
LINE
  8
DATA
  6
CONTINUOUS
 62
     7
 10
270.25
 20
502.11577
 11
270.25
 21
514.75
  0
ARC
  8
DATA
  6
CONTINUOUS
 62
     7
 10
265.0
 20
494.5
 40
9.25
 50
124.580789
 51
235.419211
  0
ARC
  8
DATA
  6
CONTINUOUS
 62
     7
 10
265.0
 20
474.25
 40
5.25
 50
180.0
 51
0.0
  0
ARC
  8
DATA
  6
CONTINUOUS
 62
     7
 10
265.0
 20
494.5
 40
9.24999
 50
304.580825
 51
55.419211
  0
LINE
  8
DATA
  6
CONTINUOUS
 62
     7
 10
259.75
 20
474.25
 11
259.75
 21
486.88423
  0
LINE
  8
DATA
  6
CONTINUOUS
 62
     7
 10
270.25
 20
474.25
 11
270.25
 21
486.88424
  0
ARC
  8
DATA
  6
CONTINUOUS
 62
     7
 10
265.0
 20
514.75
 40
5.25
 50
0.0
 51
180.0
  0
LINE
  8
DIMENSIONS
  6
CONTINUOUS
 62
     7
 10
238.0
 20
373.00008
 11
250.0
 21
375.0
  0
LINE
  8
DIMENSIONS
  6
CONTINUOUS
 62
     7
 10
238.0
 20
376.99992
 11
250.0
 21
375.0
  0
LINE
  8
DIMENSIONS
  6
CONTINUOUS
 62
     7
 10
265.0
 20
463.0
 11
265.0
 21
367.5
  0
LINE
  8
DIMENSIONS
  6
CONTINUOUS
 62
     7
 10
277.0
 20
373.00008
 11
265.0
 21
375.0
  0
LINE
  8
DIMENSIONS
  6
CONTINUOUS
 62
     7
 10
277.0
 20
376.99992
 11
265.0
 21
375.0
  0
LINE
  8
DIMENSIONS
  6
CONTINUOUS
 62
     7
 10
250.0
 20
456.5
 11
250.0
 21
342.5
  0
LINE
  8
DIMENSIONS
  6
CONTINUOUS
 62
     7
 10
262.0
 20
348.00008
 11
250.0
 21
350.0
  0
LINE
  8
DIMENSIONS
  6
CONTINUOUS
 62
     7
 10
262.0
 20
351.99992
 11
250.0
 21
350.0
  0
ARC
  8
DATA
  6
CONTINUOUS
 62
     7
 10
356.0
 20
562.25
 40
4.25
 50
180.0
 51
0.0
  0
ARC
  8
DATA
  6
CONTINUOUS
 62
     7
 10
356.0
 20
613.75
 40
4.25
 50
0.0
 51
180.0
  0
LINE
  8
DATA
  6
CONTINUOUS
 62
     7
 10
262.5
 20
672.0
 11
303.1
 21
672.0
  0
LINE
  8
DATA
  6
CONTINUOUS
 62
     7
 10
259.75
 20
642.11577
 11
259.75
 21
654.75
  0
LINE
  8
DATA
  6
CONTINUOUS
 62
     7
 10
270.25
 20
642.11577
 11
270.25
 21
654.75
  0
CIRCLE
  8
DATA
  6
CONTINUOUS
 62
     7
 10
265.0
 20
564.25
 40
5.25
  0
ARC
  8
DATA
  6
CONTINUOUS
 62
     7
 10
265.0
 20
614.25
 40
5.25
 50
180.0
 51
0.0
  0
ARC
  8
DATA
  6
CONTINUOUS
 62
     7
 10
265.0
 20
634.5
 40
9.24999
 50
304.580825
 51
55.419211
  0
ARC
  8
DATA
  6
CONTINUOUS
 62
     7
 10
265.0
 20
634.5
 40
9.25
 50
124.580789
 51
235.419211
  0
LINE
  8
DATA
  6
CONTINUOUS
 62
     7
 10
259.75
 20
614.25
 11
259.75
 21
626.88423
  0
LINE
  8
DATA
  6
CONTINUOUS
 62
     7
 10
270.25
 20
614.25
 11
270.25
 21
626.88424
  0
ARC
  8
DATA
  6
CONTINUOUS
 62
     7
 10
265.0
 20
654.75
 40
5.25
 50
0.0
 51
180.0
  0
ARC
  8
DATA
  6
CONTINUOUS
 62
     7
 10
262.5
 20
659.5
 40
12.5
 50
90.0
 51
180.0
  0
LINE
  8
DATA
  6
CONTINUOUS
 62
     7
 10
303.1
 20
641.0
 11
303.1
 21
672.0
  0
ARC
  8
DATA
  6
CONTINUOUS
 62
     7
 10
317.5
 20
648.5
 40
7.5
 50
270.0
 51
0.0
  0
LINE
  8
DATA
  6
CONTINUOUS
 62
     7
 10
299.5
 20
641.0
 11
317.5
 21
641.0
  0
LINE
  8
DATA
  6
CONTINUOUS
 62
     7
 10
351.75
 20
562.25
 11
351.75
 21
613.75
  0
LINE
  8
DATA
  6
CONTINUOUS
 62
     7
 10
360.25
 20
562.25
 11
360.25
 21
613.75
  0
LINE
  8
DATA
  6
CONTINUOUS
 62
     7
 10
490.5
 20
450.0
 11
490.5
 21
672.0
  0
TEXT
  8
DIMENSIONS
  6
CONTINUOUS
 62
     7
 10
383.383548
 20
382.5
 40
15.0
  1
260
  7
TTF_DEFAULT
  0
TEXT
  8
DIMENSIONS
  6
CONTINUOUS
 62
     7
 10
383.383548
 20
357.5
 40
15.0
  1
290
  7
TTF_DEFAULT
  0
LINE
  8
DATA
  6
CONTINUOUS
 62
     7
 10
472.5
 20
641.0
 11
490.5
 21
641.0
  0
LINE
  8
DATA
  6
CONTINUOUS
 62
     7
 10
486.9
 20
641.0
 11
486.9
 21
672.0
  0
LINE
  8
DATA
  6
CONTINUOUS
 62
     7
 10
438.25
 20
562.25
 11
438.25
 21
613.75
  0
LINE
  8
DATA
  6
CONTINUOUS
 62
     7
 10
429.75
 20
562.25
 11
429.75
 21
613.75
  0
ARC
  8
DATA
  6
CONTINUOUS
 62
     7
 10
434.0
 20
562.25
 40
4.25
 50
180.0
 51
0.0
  0
ARC
  8
DATA
  6
CONTINUOUS
 62
     7
 10
434.0
 20
613.75
 40
4.25
 50
0.0
 51
180.0
  0
ARC
  8
DATA
  6
CONTINUOUS
 62
     7
 10
472.5
 20
648.5
 40
7.5
 50
180.0
 51
270.0
  0
LINE
  8
DATA
  6
CONTINUOUS
 62
     7
 10
483.0
 20
940.6
 11
307.0
 21
940.6
  0
LINE
  8
DATA
  6
CONTINUOUS
 62
     7
 10
345.0
 20
774.0
 11
445.0
 21
774.0
  0
LINE
  8
DATA
  6
CONTINUOUS
 62
     7
 10
345.0
 20
776.545584
 11
445.0
 21
776.545584
  0
LINE
  8
DATA
  6
CONTINUOUS
 62
     7
 10
445.0
 20
843.0
 11
345.0
 21
843.0
  0
LINE
  8
DATA
  6
CONTINUOUS
 62
     7
 10
445.0
 20
845.545584
 11
345.0
 21
845.545584
  0
LINE
  8
DIMENSIONS
  6
CONTINUOUS
 62
     7
 10
303.1
 20
1000.0
 11
486.9
 21
1000.0
  0
LINE
  8
DATA
  6
CONTINUOUS
 62
     7
 10
325.0
 20
863.0
 11
325.0
 21
937.0
  0
ARC
  8
DATA
  6
CONTINUOUS
 62
     7
 10
356.0
 20
881.52995
 40
4.25
 50
0.0
 51
180.0
  0
ARC
  8
DATA
  6
CONTINUOUS
 62
     7
 10
356.0
 20
879.40495
 40
4.25
 50
0.0
 51
180.0
  0
ARC
  8
DATA
  6
CONTINUOUS
 62
     7
 10
356.0
 20
737.59136
 40
4.25
 50
180.0
 51
0.0
  0
ARC
  8
DATA
  6
CONTINUOUS
 62
     7
 10
356.0
 20
739.71636
 40
4.25
 50
180.0
 51
0.0
  0
ARC
  8
DATA
  6
CONTINUOUS
 62
     7
 10
356.0
 20
762.67894
 40
4.25
 50
0.0
 51
180.0
  0
ARC
  8
DATA
  6
CONTINUOUS
 62
     7
 10
356.0
 20
856.44238
 40
4.25
 50
180.0
 51
0.0
  0
LINE
  8
DATA
  6
CONTINUOUS
 62
     7
 10
351.75
 20
856.44238
 11
351.75
 21
881.52995
  0
LINE
  8
DATA
  6
CONTINUOUS
 62
     7
 10
325.0
 20
754.0
 11
345.0
 21
774.0
  0
LINE
  8
DATA
  6
CONTINUOUS
 62
     7
 10
325.0
 20
756.545584
 11
345.0
 21
776.545584
  0
LINE
  8
DATA
  6
CONTINUOUS
 62
     7
 10
325.0
 20
863.0
 11
345.0
 21
843.0
  0
LINE
  8
DATA
  6
CONTINUOUS
 62
     7
 10
325.0
 20
865.545584
 11
345.0
 21
845.545584
  0
LINE
  8
DATA
  6
CONTINUOUS
 62
     7
 10
351.75
 20
737.59136
 11
351.75
 21
762.67894
  0
LINE
  8
DATA
  6
CONTINUOUS
 62
     7
 10
345.0
 20
774.0
 11
345.0
 21
776.545584
  0
LINE
  8
DATA
  6
CONTINUOUS
 62
     7
 10
345.0
 20
843.0
 11
345.0
 21
845.545584
  0
LINE
  8
DATA
  6
CONTINUOUS
 62
     7
 10
360.25
 20
856.44238
 11
360.25
 21
881.52995
  0
LINE
  8
DATA
  6
CONTINUOUS
 62
     7
 10
360.25
 20
737.59136
 11
360.25
 21
762.67894
  0
LINE
  8
DATA
  6
CONTINUOUS
 62
     7
 10
295.6
 20
975.0
 11
250.0
 21
975.0
  0
LINE
  8
DATA
  6
CONTINUOUS
 62
     7
 10
295.6
 20
971.4
 11
250.0
 21
971.4
  0
LINE
  8
DATA
  6
CONTINUOUS
 62
     7
 10
250.0
 20
975.0
 11
250.0
 21
972.0
  0
LINE
  8
DATA
  6
CONTINUOUS
 62
     7
 10
325.0
 20
937.0
 11
307.0
 21
937.0
  0
ARC
  8
DATA
  6
CONTINUOUS
 62
     7
 10
295.6
 20
967.5
 40
7.5
 50
0.0
 51
90.0
  0
ARC
  8
DATA
  6
CONTINUOUS
 62
     7
 10
307.0
 20
944.5
 40
7.5
 50
180.0
 51
270.0
  0
LINE
  8
DATA
  6
CONTINUOUS
 62
     7
 10
299.5
 20
967.5
 11
299.5
 21
944.5
  0
ARC
  8
DATA
  6
CONTINUOUS
 62
     7
 10
295.6
 20
967.5
 40
3.9
 50
0.0
 51
90.0
  0
LINE
  8
DATA
  6
CONTINUOUS
 62
     7
 10
303.1
 20
967.5
 11
303.1
 21
944.5
  0
ARC
  8
DATA
  6
CONTINUOUS
 62
     7
 10
307.0
 20
944.5
 40
3.9
 50
180.0
 51
270.0
  0
LINE
  8
DIMENSIONS
  6
CONTINUOUS
 62
     7
 10
315.1
 20
998.00008
 11
303.1
 21
1000.0
  0
LINE
  8
DIMENSIONS
  6
CONTINUOUS
 62
     7
 10
315.1
 20
1001.99992
 11
303.1
 21
1000.0
  0
LINE
  8
DIMENSIONS
  6
CONTINUOUS
 62
     7
 10
250.0
 20
1000.0
 11
303.1
 21
1000.0
  0
LINE
  8
DIMENSIONS
  6
CONTINUOUS
 62
     7
 10
250.0
 20
981.0
 11
250.0
 21
1007.5
  0
LINE
  8
DIMENSIONS
  6
CONTINUOUS
 62
     7
 10
303.1
 20
973.5
 11
303.1
 21
1007.5
  0
LINE
  8
DIMENSIONS
  6
CONTINUOUS
 62
     7
 10
262.0
 20
998.00008
 11
250.0
 21
1000.0
  0
LINE
  8
DIMENSIONS
  6
CONTINUOUS
 62
     7
 10
262.0
 20
1001.99992
 11
250.0
 21
1000.0
  0
LINE
  8
DIMENSIONS
  6
CONTINUOUS
 62
     7
 10
291.1
 20
998.00008
 11
303.1
 21
1000.0
  0
LINE
  8
DIMENSIONS
  6
CONTINUOUS
 62
     7
 10
291.1
 20
1001.99992
 11
303.1
 21
1000.0
  0
TEXT
  8
DIMENSIONS
  6
CONTINUOUS
 62
     7
 10
262.869316
 20
1007.5
 40
15.0
  1
53.1
  7
TTF_DEFAULT
  0
LINE
  8
DATA
  6
CONTINUOUS
 62
     7
 10
465.0
 20
863.0
 11
465.0
 21
937.0
  0
LINE
  8
DATA
  6
CONTINUOUS
 62
     7
 10
438.25
 20
856.44238
 11
438.25
 21
881.52995
  0
LINE
  8
DATA
  6
CONTINUOUS
 62
     7
 10
429.75
 20
856.44238
 11
429.75
 21
881.52995
  0
ARC
  8
DATA
  6
CONTINUOUS
 62
     7
 10
434.0
 20
881.52995
 40
4.25
 50
0.0
 51
180.0
  0
ARC
  8
DATA
  6
CONTINUOUS
 62
     7
 10
434.0
 20
879.40495
 40
4.25
 50
0.0
 51
180.0
  0
LINE
  8
DATA
  6
CONTINUOUS
 62
     7
 10
445.0
 20
774.0
 11
465.0
 21
754.0
  0
LINE
  8
DATA
  6
CONTINUOUS
 62
     7
 10
445.0
 20
776.545584
 11
465.0
 21
756.545584
  0
LINE
  8
DATA
  6
CONTINUOUS
 62
     7
 10
438.25
 20
737.59136
 11
438.25
 21
762.67894
  0
LINE
  8
DATA
  6
CONTINUOUS
 62
     7
 10
429.75
 20
737.59136
 11
429.75
 21
762.67894
  0
ARC
  8
DATA
  6
CONTINUOUS
 62
     7
 10
434.0
 20
737.59136
 40
4.25
 50
180.0
 51
0.0
  0
ARC
  8
DATA
  6
CONTINUOUS
 62
     7
 10
434.0
 20
739.71636
 40
4.25
 50
180.0
 51
0.0
  0
LINE
  8
DATA
  6
CONTINUOUS
 62
     7
 10
465.0
 20
863.0
 11
445.0
 21
843.0
  0
LINE
  8
DATA
  6
CONTINUOUS
 62
     7
 10
445.0
 20
845.545584
 11
465.0
 21
865.545584
  0
ARC
  8
DATA
  6
CONTINUOUS
 62
     7
 10
434.0
 20
762.67894
 40
4.25
 50
0.0
 51
180.0
  0
LINE
  8
DATA
  6
CONTINUOUS
 62
     7
 10
445.0
 20
774.0
 11
445.0
 21
776.545584
  0
ARC
  8
DATA
  6
CONTINUOUS
 62
     7
 10
434.0
 20
856.44238
 40
4.25
 50
180.0
 51
0.0
  0
LINE
  8
DATA
  6
CONTINUOUS
 62
     7
 10
445.0
 20
843.0
 11
445.0
 21
845.545584
  0
ARC
  8
DATA
  6
CONTINUOUS
 62
     7
 10
483.0
 20
944.5
 40
7.5
 50
270.0
 51
360.0
  0
LINE
  8
DATA
  6
CONTINUOUS
 62
     7
 10
483.0
 20
937.0
 11
465.0
 21
937.0
  0
LINE
  8
DATA
  6
CONTINUOUS
 62
     7
 10
486.9
 20
967.5
 11
486.9
 21
944.5
  0
ARC
  8
DATA
  6
CONTINUOUS
 62
     7
 10
483.0
 20
944.5
 40
3.9
 50
270.0
 51
0.0
  0
LINE
  8
DIMENSIONS
  6
CONTINUOUS
 62
     7
 10
474.9
 20
998.00008
 11
486.9
 21
1000.0
  0
LINE
  8
DIMENSIONS
  6
CONTINUOUS
 62
     7
 10
474.9
 20
1001.99992
 11
486.9
 21
1000.0
  0
LINE
  8
DIMENSIONS
  6
CONTINUOUS
 62
     7
 10
486.9
 20
973.5
 11
486.9
 21
1007.5
  0
TEXT
  8
DIMENSIONS
  6
CONTINUOUS
 62
     7
 10
377.359117
 20
1007.5
 40
15.0
  1
183.8
  7
TTF_DEFAULT
  0
LINE
  8
DATA
  6
CONTINUOUS
 62
     7
 10
490.5
 20
967.5
 11
490.5
 21
944.5
  0
LINE
  8
DATA
  6
CONTINUOUS
 62
     7
 10
737.732086
 20
686.267904
 11
650.0
 21
774.0
  0
LINE
  8
DATA
  6
CONTINUOUS
 62
     7
 10
652.545584
 20
776.545584
 11
740.277671
 21
688.813488
  0
LINE
  8
DIMENSIONS
  6
CONTINUOUS
 62
     7
 10
650.0
 20
768.0
 11
650.0
 21
342.5
  0
LINE
  8
DIMENSIONS
  6
CONTINUOUS
 62
     7
 10
875.0
 20
450.0
 11
875.0
 21
776.545584
  0
ARC
  8
DIMENSIONS
  6
CONTINUOUS
 62
     7
 10
744.0
 20
679.999989
 40
80.574491
 50
134.999997
 51
190.434303
  0
LINE
  8
HIBINO-BASE
  6
CONTINUOUS
 62
     7
 10
500.0
 20
125.0
 11
950.0
 21
125.0
  0
LINE
  8
0
  6
CONTINUOUS
 62
     7
 10
500.0
 20
188.5
 11
950.0
 21
188.5
  0
LINE
  8
0
  6
CONTINUOUS
 62
     7
 10
500.0
 20
186.5
 11
950.0
 21
186.5
  0
LINE
  8
0
  6
CONTINUOUS
 62
     7
 10
500.0
 20
188.5
 11
500.0
 21
186.5
  0
LINE
  8
0
  6
CONTINUOUS
 62
     7
 10
950.0
 20
188.5
 11
950.0
 21
186.5
  0
SOLID
  8
HIBINO-BASE
  6
CONTINUOUS
 62
     7
 10
500.0
 20
188.5
 11
950.0
 21
188.5
 12
500.0
 22
186.5
 13
950.0
 23
186.5
  0
TEXT
  8
HIBINO-BASE
  6
CONTINUOUS
 62
     7
 10
743.75
 20
87.5
 40
12.5
  1
N.Sasaki
  7
TTF_DEFAULT
  0
TEXT
  8
HIBINO-BASE
  6
CONTINUOUS
 62
     7
 10
740.0
 20
112.5
 40
12.5
  1
DRAWN
  7
TTF_DEFAULT
  0
TEXT
  8
DATA
  6
CONTINUOUS
 62
     7
 10
750.0
 20
162.5
 40
15.0
  1
JBL
  7
TTF_DEFAULT
  0
LINE
  8
DATA
  6
CONTINUOUS
 62
     7
 10
782.0
 20
450.0
 11
744.0
 21
450.0
  0
LINE
  8
DATA
  6
CONTINUOUS
 62
     7
 10
751.0
 20
641.0
 11
782.0
 21
672.0
  0
LINE
  8
DIMENSIONS
  6
CONTINUOUS
 62
     7
 10
744.0
 20
375.0
 11
782.0
 21
375.0
  0
LINE
  8
DIMENSIONS
  6
CONTINUOUS
 62
     7
 10
756.0
 20
373.00008
 11
744.0
 21
375.0
  0
LINE
  8
DIMENSIONS
  6
CONTINUOUS
 62
     7
 10
756.0
 20
376.99992
 11
744.0
 21
375.0
  0
LINE
  8
DIMENSIONS
  6
CONTINUOUS
 62
     7
 10
782.0
 20
350.0
 11
650.0
 21
350.0
  0
LINE
  8
DIMENSIONS
  6
CONTINUOUS
 62
     7
 10
753.6
 20
680.0
 11
857.5
 21
680.0
  0
TEXT
  8
DATA
  6
CONTINUOUS
 62
     7
 10
750.0
 20
137.5
 40
15.0
  1
EON BRK1
  7
TTF_DEFAULT
  0
TEXT
  8
HIBINO-BASE
  6
CONTINUOUS
 62
     7
 10
618.75
 20
87.5
 40
12.5
  1
'98.8.
  7
TTF_DEFAULT
  0
TEXT
  8
HIBINO-BASE
  6
CONTINUOUS
 62
     7
 10
615.0
 20
112.5
 40
12.5
  1
DATE
  7
TTF_DEFAULT
  0
LINE
  8
0
  6
CONTINUOUS
 62
     7
 10
499.0
 20
75.0
 11
499.0
 21
187.5
  0
LINE
  8
0
  6
CONTINUOUS
 62
     7
 10
501.0
 20
75.0
 11
501.0
 21
187.5
  0
LINE
  8
0
  6
CONTINUOUS
 62
     7
 10
499.0
 20
75.0
 11
501.0
 21
75.0
  0
LINE
  8
0
  6
CONTINUOUS
 62
     7
 10
499.0
 20
187.5
 11
501.0
 21
187.5
  0
SOLID
  8
HIBINO-BASE
  6
CONTINUOUS
 62
     7
 10
499.0
 20
75.0
 11
499.0
 21
187.5
 12
501.0
 22
75.0
 13
501.0
 23
187.5
  0
TEXT
  8
HIBINO-BASE
  6
CONTINUOUS
 62
     7
 10
518.75
 20
81.25
 40
20.0
  1
A4
  7
TTF_DEFAULT
  0
LINE
  8
HIBINO-BASE
  6
CONTINUOUS
 62
     7
 10
571.875
 20
81.25
 11
590.625
 21
100.0
  0
TEXT
  8
HIBINO-BASE
  6
CONTINUOUS
 62
     7
 10
568.75
 20
90.625
 40
15.0
  1
1
  7
TTF_DEFAULT
  0
LINE
  8
HIBINO-BASE
  6
CONTINUOUS
 62
     7
 10
562.5
 20
75.0
 11
562.5
 21
125.0
  0
TEXT
  8
HIBINO-BASE
  6
CONTINUOUS
 62
     7
 10
587.5
 20
81.25
 40
15.0
  1
5
  7
TTF_DEFAULT
  0
TEXT
  8
HIBINO-BASE
  6
CONTINUOUS
 62
     7
 10
502.5
 20
112.5
 40
11.25
  1
図面サイズ
  7
TTF_DEFAULT
  0
TEXT
  8
HIBINO-BASE
  6
CONTINUOUS
 62
     7
 10
565.0
 20
112.5
 40
12.5
  1
SCALE
  7
TTF_DEFAULT
  0
LINE
  8
HIBINO-BASE
  6
CONTINUOUS
 62
     7
 10
612.5
 20
75.0
 11
612.5
 21
125.0
  0
TEXT
  8
HIBINO-BASE
  6
CONTINUOUS
 62
     7
 10
502.5
 20
175.0
 40
12.5
  1
NOTE
  7
TTF_DEFAULT
  0
LINE
  8
HIBINO-BASE
  6
CONTINUOUS
 62
     7
 10
675.0
 20
75.0
 11
675.0
 21
187.5
  0
LINE
  8
HIBINO-BASE
  6
CONTINUOUS
 62
     7
 10
737.5
 20
125.0
 11
737.5
 21
75.0
  0
TEXT
  8
HIBINO-BASE
  6
CONTINUOUS
 62
     7
 10
677.5
 20
112.5
 40
12.5
  1
DESIGN
  7
TTF_DEFAULT
  0
TEXT
  8
HIBINO-BASE
  6
CONTINUOUS
 62
     7
 10
677.5
 20
175.0
 40
12.5
  1
TITLE
  7
TTF_DEFAULT
  0
TEXT
  8
DIMENSIONS
  6
CONTINUOUS
 62
     7
 10
582.5
 20
667.5
 40
15.0
  1
4-φ18.5
  7
TTF_DEFAULT
  0
TEXT
  8
DIMENSIONS
  6
CONTINUOUS
 62
     7
 10
582.5
 20
592.5
 40
15.0
  1
2-φ10.5
  7
TTF_DEFAULT
  0
LINE
  8
DATA
  6
CONTINUOUS
 62
     7
 10
540.0
 20
462.5
 11
540.0
 21
659.5
  0
ARC
  8
DATA
  6
CONTINUOUS
 62
     7
 10
527.5
 20
462.5
 40
12.5
 50
270.0
 51
0.0
  0
ARC
  8
DATA
  6
CONTINUOUS
 62
     7
 10
525.0
 20
474.25
 40
5.25
 50
180.0
 51
0.0
  0
ARC
  8
DATA
  6
CONTINUOUS
 62
     7
 10
525.0
 20
494.5
 40
9.25
 50
124.580789
 51
235.419175
  0
ARC
  8
DATA
  6
CONTINUOUS
 62
     7
 10
525.0
 20
494.5
 40
9.25
 50
304.580789
 51
55.419211
  0
LINE
  8
DATA
  6
CONTINUOUS
 62
     7
 10
530.25
 20
502.11577
 11
530.25
 21
514.75
  0
LINE
  8
DATA
  6
CONTINUOUS
 62
     7
 10
530.25
 20
474.25
 11
530.25
 21
486.88423
  0
LINE
  8
DATA
  6
CONTINUOUS
 62
     7
 10
519.75
 20
502.11577
 11
519.75
 21
514.75
  0
LINE
  8
DATA
  6
CONTINUOUS
 62
     7
 10
519.75
 20
474.25
 11
519.75
 21
486.88424
  0
ARC
  8
DATA
  6
CONTINUOUS
 62
     7
 10
525.0
 20
514.75
 40
5.25
 50
0.0
 51
180.0
  0
LINE
  8
DIMENSIONS
  6
CONTINUOUS
 62
     7
 10
525.0
 20
463.0
 11
525.0
 21
367.5
  0
LINE
  8
DIMENSIONS
  6
CONTINUOUS
 62
     7
 10
513.0
 20
373.00008
 11
525.0
 21
375.0
  0
LINE
  8
DIMENSIONS
  6
CONTINUOUS
 62
     7
 10
513.0
 20
376.99992
 11
525.0
 21
375.0
  0
LINE
  8
DIMENSIONS
  6
CONTINUOUS
 62
     7
 10
540.0
 20
456.5
 11
540.0
 21
342.5
  0
LINE
  8
DIMENSIONS
  6
CONTINUOUS
 62
     7
 10
528.0
 20
348.00008
 11
540.0
 21
350.0
  0
LINE
  8
DIMENSIONS
  6
CONTINUOUS
 62
     7
 10
528.0
 20
351.99992
 11
540.0
 21
350.0
  0
LINE
  8
DATA
  6
CONTINUOUS
 62
     7
 10
530.25
 20
642.11577
 11
530.25
 21
654.75
  0
LINE
  8
DATA
  6
CONTINUOUS
 62
     7
 10
519.75
 20
642.11577
 11
519.75
 21
654.75
  0
CIRCLE
  8
DATA
  6
CONTINUOUS
 62
     7
 10
525.0
 20
564.25
 40
5.25
  0
ARC
  8
DATA
  6
CONTINUOUS
 62
     7
 10
525.0
 20
614.25
 40
5.25
 50
180.0
 51
0.0
  0
ARC
  8
DATA
  6
CONTINUOUS
 62
     7
 10
525.0
 20
634.5
 40
9.25
 50
124.580789
 51
235.419175
  0
ARC
  8
DATA
  6
CONTINUOUS
 62
     7
 10
525.0
 20
634.5
 40
9.25
 50
304.580789
 51
55.419211
  0
LINE
  8
DATA
  6
CONTINUOUS
 62
     7
 10
530.25
 20
614.25
 11
530.25
 21
626.88423
  0
LINE
  8
DATA
  6
CONTINUOUS
 62
     7
 10
519.75
 20
614.25
 11
519.75
 21
626.88424
  0
ARC
  8
DATA
  6
CONTINUOUS
 62
     7
 10
525.0
 20
654.75
 40
5.25
 50
0.0
 51
180.0
  0
ARC
  8
DATA
  6
CONTINUOUS
 62
     7
 10
527.5
 20
659.5
 40
12.5
 50
0.0
 51
90.0
  0
LINE
  8
DIMENSIONS
  6
CONTINUOUS
 62
     7
 10
531.160646
 20
641.399923
 11
550.0
 21
675.0
  0
LINE
  8
DIMENSIONS
  6
CONTINUOUS
 62
     7
 10
550.0
 20
675.0
 11
575.0
 21
675.0
  0
LINE
  8
DIMENSIONS
  6
CONTINUOUS
 62
     7
 10
538.77384
 20
650.888809
 11
531.160646
 21
641.399923
  0
LINE
  8
DIMENSIONS
  6
CONTINUOUS
 62
     7
 10
535.284988
 20
652.844987
 11
531.160646
 21
641.399923
  0
LINE
  8
DIMENSIONS
  6
CONTINUOUS
 62
     7
 10
528.008658
 20
568.552381
 11
550.0
 21
600.0
  0
LINE
  8
DIMENSIONS
  6
CONTINUOUS
 62
     7
 10
550.0
 20
600.0
 11
575.0
 21
600.0
  0
LINE
  8
DIMENSIONS
  6
CONTINUOUS
 62
     7
 10
536.524526
 20
577.240284
 11
528.008658
 21
568.552381
  0
LINE
  8
DIMENSIONS
  6
CONTINUOUS
 62
     7
 10
533.246653
 20
579.532503
 11
528.008658
 21
568.552381
  0
LINE
  8
DATA
  6
CONTINUOUS
 62
     7
 10
744.0
 20
450.0
 11
744.0
 21
671.13582
  0
LINE
  8
DIMENSIONS
  6
CONTINUOUS
 62
     7
 10
650.0
 20
375.0
 11
744.0
 21
375.0
  0
LINE
  8
DIMENSIONS
  6
CONTINUOUS
 62
     7
 10
662.0
 20
373.00008
 11
650.0
 21
375.0
  0
LINE
  8
DIMENSIONS
  6
CONTINUOUS
 62
     7
 10
662.0
 20
376.99992
 11
650.0
 21
375.0
  0
LINE
  8
DIMENSIONS
  6
CONTINUOUS
 62
     7
 10
732.0
 20
373.00008
 11
744.0
 21
375.0
  0
LINE
  8
DIMENSIONS
  6
CONTINUOUS
 62
     7
 10
732.0
 20
376.99992
 11
744.0
 21
375.0
  0
LINE
  8
DIMENSIONS
  6
CONTINUOUS
 62
     7
 10
744.0
 20
444.0
 11
744.0
 21
367.5
  0
LINE
  8
DIMENSIONS
  6
CONTINUOUS
 62
     7
 10
662.0
 20
351.99992
 11
650.0
 21
350.0
  0
LINE
  8
DIMENSIONS
  6
CONTINUOUS
 62
     7
 10
662.0
 20
348.00008
 11
650.0
 21
350.0
  0
TEXT
  8
DIMENSIONS
  6
CONTINUOUS
 62
     7
 10
688.592096
 20
382.5
 40
15.0
  1
94
  7
TTF_DEFAULT
  0
TEXT
  8
DIMENSIONS
  6
CONTINUOUS
 62
     7
 10
703.388145
 20
357.5
 40
15.0
  1
132
  7
TTF_DEFAULT
  0
LINE
  8
DATA
  6
CONTINUOUS
 62
     7
 10
747.6
 20
671.13582
 11
747.6
 21
641.0
  0
LINE
  8
DATA
  6
CONTINUOUS
 62
     7
 10
744.0
 20
641.0
 11
751.0
 21
641.0
  0
ARC
  8
DATA
  6
CONTINUOUS
 62
     7
 10
722.6
 20
671.13582
 40
25.0
 50
0.0
 51
44.999997
  0
ARC
  8
DATA
  6
CONTINUOUS
 62
     7
 10
722.6
 20
671.13582
 40
21.4
 50
0.0
 51
44.999997
  0
ARC
  8
DIMENSIONS
  6
CONTINUOUS
 62
     7
 10
744.0
 20
679.999989
 40
80.574491
 50
214.808986
 51
270.0
  0
LINE
  8
DIMENSIONS
  6
CONTINUOUS
 62
     7
 10
732.182241
 20
602.313449
 11
744.0
 21
599.425499
  0
LINE
  8
DIMENSIONS
  6
CONTINUOUS
 62
     7
 10
731.884392
 20
598.324714
 11
744.0
 21
599.425499
  0
ARC
  8
DIMENSIONS
  6
CONTINUOUS
 62
     7
 10
747.6
 20
637.6
 40
27.899283
 50
90.0
 51
164.514034
  0
LINE
  8
DIMENSIONS
  6
CONTINUOUS
 62
     7
 10
736.310889
 20
660.965448
 11
747.6
 21
665.499283
  0
LINE
  8
DIMENSIONS
  6
CONTINUOUS
 62
     7
 10
735.450687
 20
664.871696
 11
747.6
 21
665.499283
  0
TEXT
  8
DIMENSIONS
  6
CONTINUOUS
 62
     7
 10
712.5
 20
662.5
 40
15.0
  1
45゜
  7
TTF_DEFAULT
  0
TEXT
  8
DIMENSIONS
  6
CONTINUOUS
 62
     7
 10
652.322674
 20
641.665469
 40
15.0
  1
135゜
  7
TTF_DEFAULT
  0
TEXT
  8
HIBINO-BASE
  6
CONTINUOUS
 62
     7
 10
865.0
 20
112.5
 40
12.5
  1
DRAWING NO.
  7
TTF_DEFAULT
  0
TEXT
  8
HIBINO-BASE
  6
CONTINUOUS
 62
     7
 10
793.650131
 20
42.9566
 40
20.0
  1
ヒビノ株式会社
  7
TTF_DEFAULT
  0
LINE
  8
HIBINO-BASE
  6
CONTINUOUS
 62
     7
 10
862.5
 20
125.0
 11
862.5
 21
75.0
  0
LINE
  8
HIBINO-BASE
  6
CONTINUOUS
 62
     7
 10
800.0
 20
75.0
 11
800.0
 21
125.0
  0
TEXT
  8
HIBINO-BASE
  6
CONTINUOUS
 62
     7
 10
802.5
 20
112.5
 40
12.5
  1
CHECK
  7
TTF_DEFAULT
  0
LINE
  8
DATA
  6
CONTINUOUS
 62
     7
 10
778.4
 20
450.0
 11
778.4
 21
668.4
  0
LINE
  8
DATA
  6
CONTINUOUS
 62
     7
 10
782.0
 20
450.0
 11
782.0
 21
672.0
  0
LINE
  8
DIMENSIONS
  6
CONTINUOUS
 62
     7
 10
825.0
 20
672.0
 11
825.0
 21
450.0
  0
LINE
  8
DIMENSIONS
  6
CONTINUOUS
 62
     7
 10
850.0
 20
680.0
 11
850.0
 21
450.0
  0
LINE
  8
DIMENSIONS
  6
CONTINUOUS
 62
     7
 10
823.00008
 20
462.0
 11
825.0
 21
450.0
  0
LINE
  8
DIMENSIONS
  6
CONTINUOUS
 62
     7
 10
826.99992
 20
462.0
 11
825.0
 21
450.0
  0
LINE
  8
DIMENSIONS
  6
CONTINUOUS
 62
     7
 10
848.00008
 20
462.0
 11
850.0
 21
450.0
  0
LINE
  8
DIMENSIONS
  6
CONTINUOUS
 62
     7
 10
851.99992
 20
462.0
 11
850.0
 21
450.0
  0
LINE
  8
DIMENSIONS
  6
CONTINUOUS
 62
     7
 10
770.0
 20
373.00008
 11
782.0
 21
375.0
  0
LINE
  8
DIMENSIONS
  6
CONTINUOUS
 62
     7
 10
770.0
 20
376.99992
 11
782.0
 21
375.0
  0
LINE
  8
DIMENSIONS
  6
CONTINUOUS
 62
     7
 10
782.0
 20
444.0
 11
782.0
 21
342.5
  0
LINE
  8
DIMENSIONS
  6
CONTINUOUS
 62
     7
 10
770.0
 20
351.99992
 11
782.0
 21
350.0
  0
LINE
  8
DIMENSIONS
  6
CONTINUOUS
 62
     7
 10
770.0
 20
348.00008
 11
782.0
 21
350.0
  0
LINE
  8
DIMENSIONS
  6
CONTINUOUS
 62
     7
 10
788.0
 20
450.0
 11
882.5
 21
450.0
  0
LINE
  8
DIMENSIONS
  6
CONTINUOUS
 62
     7
 10
876.99992
 20
462.0
 11
875.0
 21
450.0
  0
LINE
  8
DIMENSIONS
  6
CONTINUOUS
 62
     7
 10
873.00008
 20
462.0
 11
875.0
 21
450.0
  0
TEXT
  8
DIMENSIONS
  6
CONTINUOUS
 62
     7
 10
754.592096
 20
382.5
 40
15.0
  1
38
  7
TTF_DEFAULT
  0
LINE
  8
DIMENSIONS
  6
CONTINUOUS
 62
     7
 10
788.0
 20
672.0
 11
832.5
 21
672.0
  0
LINE
  8
DIMENSIONS
  6
CONTINUOUS
 62
     7
 10
823.00008
 20
660.0
 11
825.0
 21
672.0
  0
LINE
  8
DIMENSIONS
  6
CONTINUOUS
 62
     7
 10
826.99992
 20
660.0
 11
825.0
 21
672.0
  0
LINE
  8
DIMENSIONS
  6
CONTINUOUS
 62
     7
 10
848.00008
 20
668.0
 11
850.0
 21
680.0
  0
LINE
  8
DIMENSIONS
  6
CONTINUOUS
 62
     7
 10
851.99992
 20
668.0
 11
850.0
 21
680.0
  0
TEXT
  8
DIMENSIONS
  6
CONTINUOUS
 62
     7
 10
817.5
 20
548.388145
 40
15.0
  1
222
 50
90.0
  7
TTF_DEFAULT
  0
TEXT
  8
DIMENSIONS
  6
CONTINUOUS
 62
     7
 10
842.5
 20
552.388145
 40
15.0
  1
230
 50
90.0
  7
TTF_DEFAULT
  0
TEXT
  8
DIMENSIONS
  6
CONTINUOUS
 62
     7
 10
867.5
 20
594.775404
 40
15.0
  1
326.5
 50
90.0
  7
TTF_DEFAULT
  0
ARC
  8
DIMENSIONS
  6
CONTINUOUS
 62
     7
 10
747.6
 20
637.6
 40
27.899283
 50
330.485966
 51
45.0
  0
LINE
  8
DIMENSIONS
  6
CONTINUOUS
 62
     7
 10
772.104473
 20
646.13926
 11
767.327772
 21
657.327772
  0
LINE
  8
DIMENSIONS
  6
CONTINUOUS
 62
     7
 10
775.474863
 20
648.293139
 11
767.327772
 21
657.327772
  0
LINE
  8
DIMENSIONS
  6
CONTINUOUS
 62
     7
 10
658.545584
 20
776.545584
 11
882.5
 21
776.545584
  0
LINE
  8
DIMENSIONS
  6
CONTINUOUS
 62
     7
 10
546.0
 20
975.0
 11
657.5
 21
975.0
  0
LINE
  8
DIMENSIONS
  6
CONTINUOUS
 62
     7
 10
600.0
 20
937.0
 11
600.0
 21
843.0
  0
TEXT
  8
DIMENSIONS
  6
CONTINUOUS
 62
     7
 10
592.5
 20
882.079604
 40
15.0
  1
94
 50
90.0
  7
TTF_DEFAULT
  0
LINE
  8
DIMENSIONS
  6
CONTINUOUS
 62
     7
 10
598.00008
 20
855.0
 11
600.0
 21
843.0
  0
LINE
  8
DIMENSIONS
  6
CONTINUOUS
 62
     7
 10
601.99992
 20
855.0
 11
600.0
 21
843.0
  0
LINE
  8
DATA
  6
CONTINUOUS
 62
     7
 10
540.0
 20
972.0
 11
540.0
 21
975.0
  0
LINE
  8
DATA
  6
CONTINUOUS
 62
     7
 10
540.0
 20
975.0
 11
494.4
 21
975.0
  0
LINE
  8
DATA
  6
CONTINUOUS
 62
     7
 10
540.0
 20
971.4
 11
494.4
 21
971.4
  0
LINE
  8
DIMENSIONS
  6
CONTINUOUS
 62
     7
 10
600.0
 20
975.0
 11
600.0
 21
937.0
  0
LINE
  8
DIMENSIONS
  6
CONTINUOUS
 62
     7
 10
598.00008
 20
963.0
 11
600.0
 21
975.0
  0
LINE
  8
DIMENSIONS
  6
CONTINUOUS
 62
     7
 10
601.99992
 20
963.0
 11
600.0
 21
975.0
  0
LINE
  8
DIMENSIONS
  6
CONTINUOUS
 62
     7
 10
598.00008
 20
949.0
 11
600.0
 21
937.0
  0
LINE
  8
DIMENSIONS
  6
CONTINUOUS
 62
     7
 10
601.99992
 20
949.0
 11
600.0
 21
937.0
  0
LINE
  8
DIMENSIONS
  6
CONTINUOUS
 62
     7
 10
598.00008
 20
925.0
 11
600.0
 21
937.0
  0
LINE
  8
DIMENSIONS
  6
CONTINUOUS
 62
     7
 10
601.99992
 20
925.0
 11
600.0
 21
937.0
  0
LINE
  8
DIMENSIONS
  6
CONTINUOUS
 62
     7
 10
540.0
 20
981.0
 11
540.0
 21
1007.5
  0
LINE
  8
DIMENSIONS
  6
CONTINUOUS
 62
     7
 10
528.0
 20
998.00008
 11
540.0
 21
1000.0
  0
LINE
  8
DIMENSIONS
  6
CONTINUOUS
 62
     7
 10
528.0
 20
1001.99992
 11
540.0
 21
1000.0
  0
TEXT
  8
DIMENSIONS
  6
CONTINUOUS
 62
     7
 10
499.769316
 20
1007.5
 40
15.0
  1
53.1
  7
TTF_DEFAULT
  0
TEXT
  8
DIMENSIONS
  6
CONTINUOUS
 62
     7
 10
592.5
 20
948.079604
 40
15.0
  1
38
 50
90.0
  7
TTF_DEFAULT
  0
LINE
  8
DIMENSIONS
  6
CONTINUOUS
 62
     7
 10
650.0
 20
975.0
 11
650.0
 21
843.0
  0
LINE
  8
DATA
  6
CONTINUOUS
 62
     7
 10
650.0
 20
774.0
 11
652.545584
 21
776.545584
  0
LINE
  8
DIMENSIONS
  6
CONTINUOUS
 62
     7
 10
648.00008
 20
855.0
 11
650.0
 21
843.0
  0
LINE
  8
DIMENSIONS
  6
CONTINUOUS
 62
     7
 10
651.99992
 20
855.0
 11
650.0
 21
843.0
  0
LINE
  8
DIMENSIONS
  6
CONTINUOUS
 62
     7
 10
680.710906
 20
726.576255
 11
687.025234
 21
736.974761
  0
LINE
  8
DIMENSIONS
  6
CONTINUOUS
 62
     7
 10
677.679833
 20
729.186105
 11
687.025234
 21
736.974761
  0
LINE
  8
DIMENSIONS
  6
CONTINUOUS
 62
     7
 10
648.00008
 20
963.0
 11
650.0
 21
975.0
  0
LINE
  8
DIMENSIONS
  6
CONTINUOUS
 62
     7
 10
651.99992
 20
963.0
 11
650.0
 21
975.0
  0
TEXT
  8
DIMENSIONS
  6
CONTINUOUS
 62
     7
 10
642.5
 20
897.119406
 40
15.0
  1
132
 50
90.0
  7
TTF_DEFAULT
  0
LINE
  8
DIMENSIONS
  6
CONTINUOUS
 62
     7
 10
876.99992
 20
764.545584
 11
875.0
 21
776.545584
  0
LINE
  8
DIMENSIONS
  6
CONTINUOUS
 62
     7
 10
873.00008
 20
764.545584
 11
875.0
 21
776.545584
  0
ENDSEC
  0
EOF
